sexta-feira, dezembro 24, 2010

Muros e grades

Engenheiros do Hawaii


Tom:  E   
Introdução


Bass: e|--0-0-0-0-0-0-

Guitar:

    E         E/G#       A         F#   
e|-----0-4-5-5/7---0-4-5-5/7-5-4-----4/6-6-6-5-4-------------------------
b|----5------------------------7--------------7-5------------------------
g|--4--------------------------------------------------2X----------------
d|-----------------------------------------------------------------------
a|-----------------------------------------------------------------------
E|-----------------------------------------------------------------------

E              E/G#       A           F#
Nas grandes cidades do pequeno dia-a-dia
E                 E/G#        A            F#
O medo nos leva a tudo, sobretudo a fantasia
                C#m                       B
Então erguemos muros que nos dão a garantia 
                    F#m                     A
De que morreremos cheios de uma vida tão vazia
E              E/G#           A        F#
Nas grandes cidades de um país tão violento
E                E/G#        A              F#
Os muros e as grades nos protegem de quase tudo
            C#m                       B
Mas o quase tudo quase sempre é quase nada
              F#                        A
E nada nos protege  de uma vida sem sentido
    E/G#           A
Um dia super, uma noite super
    E/G#          A
Uma vida superficial
          E/G#              A
Entre as sombras, entre as sobras
    F#         B
Da nossa escassez
    E/G#            A
Um dia super, uma noite super
     E/G#         A
Uma vida superficial
         E/G#             A
Entre as cobras, entre escombros
    F#         B   
Da nossa solidez


    E         E/G#       A                F#   
e|-----0-4-5-5/7----4-5-5/7-5-4------4-5-5/7-5-4--------------------------
b|----5------------------------7----------------7------------------------
g|--4--------------------------------------------------------------------
d|-----------------------------------------------------------------------
a|-----------------------------------------------------------------------
E|-----------------------------------------------------------------------

    E         E/G#       A                F#   
e|------4-5-5/7----4-5-5/7-5-4------4-5-5/7-5-4--------------------------
b|----5------------------------7----------------7------------------------
g|--4-----------------------------------------------4--------------------
d|-----------------------------------------------------------------------
a|-----------------------------------------------------------------------
E|-----------------------------------------------------------------------

E              E/G#         A          F#
Nas grandes cidades de um país tão irreal
   E           E/G#         B        A             F#
Os muros e as grades nos protegem de nosso próprio mal
            C#m                      B9
Levamos uma vida que não nos leva a nada
              F#m               A
Levamos muito tempo prá descobrir
              C#m
Que não é por aí
                 B
Não é por nada não
                   F#m
Não não não pode ser
               A
É claro que não é, será
E           E/G#   A           F#
Meninos de rua, delírios de ruína
E                 E/G#    A           F#
Violência nua e crua, verdade clandestina
              C#m              B
Delírios de ruína delitos e delícias
                   F#m               A
A violência travestida faz seu trottoir
                 C#m                 B
Em armas de brinquedo, medo de brincar
                 F#m                    A
Em anúncios luminosos, lâminas de barbear
    E/G#            A
Um dia super, uma noite super
    E/G#           A
Uma vida superficial
          E/G#              A
Entre as sombras, entre as sobras
    F#         B 
Da nossa escassez
   E/G#            A
Um dia super, uma noite super
    E/G#          A
Uma vida superficial
       E/G#            A
Entre cobras, entre escombros 
    G#       C#  
Da nossa solidez

   F#                 B       C#
e|------6-7-7/9----7/9-9-7-7-6-6--4-2/4----------------------------------
b|----7---------------------------------2--------------------------------
g|--6--------------------------------------------------------------------
d|-----------------------------------------------------------------------
a|-----------------------------------------------------------------------
E|-----------------------------------------------------------------------

             F#     B         C#
e|------6-7-7/9----9-9-7-7-6-6-4-4---------------------------------------
b|----7------------9-9-7-7-6-6-4-4--------------------------------------
g|--6--------------------------------------------------------------------
d|-----------------------------------------------------------------------
a|-----------------------------------------------------------------------
E|-----------------------------------------------------------------------

                    D#m                    C# 
Viver assim é um absurdo, como outro qualquer
                  G#m                   B
Como tentar o suicídio, ou amar uma mulher

                   D#m                     C# 
Viver assim é um absurdo, como outro qualquer
                   G#    B             F#
Como lutar pelo poder, lutar como puder