sexta-feira, dezembro 24, 2010

Refrão de bolero

Engenheiros do Hawaii

Tom: D 
  
(intro)


   G    A
E|------------------------------------------|
B|-3-2-0--3-2-0-----------------------------|
G|-0------2---------------------------------|
D|-0------2---------------------------------|
A|--------0---------------------------------|
E|-3----------------------------------------|

Bm                   F#m
Eu que falei nem pensar
  G                  E/G#
Agora me arrependo roendo as unhas
  A
Frágeis testemunhas
        A#°
De um crime sem perdão

    Bm               F#m
Mas eu falei sem pensar
 G                         E/G#
Coração na mão, como o refrão de um bolero
           A
Eu fui sincero
                  A#°
Como não se pode ser

   Bm                 F#m
Um erro assim tão vulgar
 G
Nos persegue a noite inteira
    E/G#
E quando acaba a bebedeira
  A                 A#°
Ele consegue nos achar

     Bm   F#m
Num bar,
        G
Com um vinho barato
      E/G#
Um cigarro no cinzeiro
       A                    A#°
E uma cara embriagada no espelho do banheiro

      G          A          Bm
Teus lábios são labirintos
       G               A             Bm
Que atraem os meus instintos mais sacanas
 G
Teu olhar
           A
sempre distante
             Bm
Sempre me engana
   G                    A          Bm   F#m   G   A
Eu entro sempre na tua dança de cigana

(2ª parte - repetição)

Bm                   F#m
Eu que falei nem pensar
  G                  E/G#
Agora me arrependo roendo as unhas
  A
Frágeis testemunhas
        A#°
De um crime sem perdão
    Bm               F#m
Mas eu falei sem pensar
 G                         E/G#
Coração na mão, como o refrão de um bolero
           A
Eu fui sincero
           A#°
Eu fui sincero

      G          A          Bm
Teus lábios são labirintos
       G               A               Bm
Que atraem os meus instintos mais sacanas
 G
Teu olhar
           A
sempre distante
             Bm
Sempre me engana
     G                 A        Bm   F#m   G   A
É o fim do mundo todo dia da semana

(solo)

(parte 1)

           G        A         Bm
E|------------------------------------------|
B|------------------------------------------|
G|------------------------------------------|
D|----------------------------------7-7h9-9~|
A|---------5------5-7b8r7-7-7-7-7/9---------|
E|-5-5-5h7---7~-7---------------------------|

(parte 2)                                 1/2

             G                       A
E|------------------------------------------|
B|----------------10-10-10-10-10-10-10------|
G|-------7-7-9/11-11-11-11-11-11-11-11------|
D|-7-7-9------------------------------------|
A|------------------------------------------|
E|------------------------------------------|

                                          2/2

E|------------------------------------------|
B|------------------------------------------|
G|11p9\7-9-9--------------------------------|
D|------------------------------------------|
A|------------------------------------------|
E|------------------------------------------|

(parte 3)

           Bm
E|------------------------------------------|
B|------------------------------------------|
G|-9-9-7------------------------------------|
D|-------9-7-9-9--7h9p7---7-----------------|
A|----------------------9---9-8-7~----------|
E|------------------------------------------|

(parte 4)

     G             A
E|-----------------------------10-----------|
B|--------------7-10/12--10-12----12--------|
G|---------7--9-----------------------------|
D|-----7-9----------------------------------|
A|-7/9--------------------------------------|
E|------------------------------------------|

(parte 5)                                1/2

 Bm
E|-12b14-14-14-14-14-14-14-14-14r13-13-13r12|
B|------------------------------------------|
G|------------------------------------------|
D|------------------------------------------|
A|------------------------------------------|
E|------------------------------------------|

                                          2/2

E|-12h10-12-10------------------------------|
B|-------------12---------------------------|
G|------------------------------------------|
D|------------------------------------------|
A|------------------------------------------|
E|------------------------------------------|

(parte 6)

        G            A         Bm
E|----10----10--10-10-10-10-----------------|
B|-12----12-----11-11-11-11--7-7--7---------|
G|---------------------------7-7--7---------|
D|-----------------------------------7-9-9~-|
A|------------------------------------------|
E|------------------------------------------|

      G          A          Bm
Teus lábios são labirintos
       G               A             Bm
Que atraem os meus instintos mais sacanas
 G                   A
Teu olhar sempre distante
             Bm
Sempre me engana
     G                 A        Bm   F#m   G   A   Bm
É o fim do mundo todo dia da semana