quinta-feira, dezembro 23, 2010

Curtametragem

Engenheiros do Hawaii

Tom: C 
  
Introdução: C

 C                     Em/B
Como qualquer curtametragem
 Am                 Em          F
Tropicalismo bossa nova rei Pelé

e|------------------------------------------|
B|-----1--0-1-3---1-0-0h1-------------------|
G|-----0--------------------0h2-2-p0--------|
D|-----2------------------------------3-2---|
A|------------------------------------------|
E|------------------------------------------| 
 C                     Em/B
Como qualquer curtametragem
 Am                Em               F
Brasil turismo Amazônia ciclo do café

e|---5-7-8--5-7---5------------------------------------------| 
B|-------------8---8-6--5-8-6-5--5---------------------------| 
G|-------------------------------7--7--7-5-5h7-0-5s4h5-s4-s2-| 
D|-----------------------------------------------------------| 
A|-----------------------------------------------------------| 
E|-----------------------------------------------------------|
 C                   Em/B
Como qualquer picaretagem
 Am                  Em                F
Mãos ao alto não se mexa fique onde está

e -/15-13--12----12--12--------------------------------| 
B|------------15--------15-13-13h15--13-12h13-10-------| 
G|-----------------------------------------------------| 
D|-----------------------------------------------------| 
A|-----------------------------------------------------| 
E|-----------------------------------------------------|

Dm                  G
A vida é uma viagem passagem só de ida
 Dm
Há quem diga que não vale

"Curtametragem quinto take"


 C                     Em/B 
Como qualquer curtametragem 
 Am                 Em          F 
Tropicalismo bossa nova rei Pelé 
 
e|--------------------------------------8-7-5-5-----------------| 
B|---------------------------5-----5-6------------8-6-5---------|
G|------------------5-----5-7-----------------------------------| 
D|--/7-~~~----0-5-0---------------------------------------------| 
A|--------------------------------------------------------------| 
E|--------------------------------------------------------------|
              X X X 
          
  C                     Em/B 
Como qualquer curtametragem 
 Am                Em               F 
Brasil turismo Amazônia ciclo do café 
 
e|--7-8--7-5---5---------------------------------------| 
B|----------8---8-8-6-5--5-----------------------------| 
G|----------------------7---5-5------------------------| 
D|-----------------------------------------------------| 
A|-----------------------------------------------------|
E|-----------------------------------------------------| 
 
 C                   Em/B 
Como qualquer picaretagem 
 Am                  Em                F 
Mãos ao alto não se mexa fique onde está 
 
 
e|--13-12-------------------------------15-------------| 
B|-------15-13-13------12-13-----12-13-----------------|
G|-------------------14--------------------------------| 
D|-----------------------------------------------------| 
A|-----------------------------------------------------| 
E|-----------------------------------------------------|
                      v  ^  v     v  ^  v 
 
Dm                  G 
A vida é uma viagem 
                   Dm 
passagem só de ida 
                          G 
Há quem diga que não vale 
                       Em 
Há quem mate prá viver 
                    Am 
A vida é uma viagem 
 
Bebida sem gelo 
    Dm          Dm/C 
Engolida às pressas 
   Bb    Bb/A  G 
Às vésperas da sede