quinta-feira, dezembro 23, 2010

A promessa

Engenheiros do Hawaii


Tom: C 
  

E|-----------------------------------|
B|-8s10~--8-6-5-6-8-5~---------------|
G|----------------------7-7~---------|
D|-----------------------------------|
A|-----------------------------------|
E|-----------------------------------|


E|-15s17~-15-13-12-13-15-12~------------------------|
B|----------------------------15-15~/---------------|
G|--------------------------------------------------|
D|--------------------------------------------------|
A|--------------------------------------------------|
E|--------------------------------------------------|

Am         G             F
Não vejo nada (o que eu vejo não me agrada)
Am         G             F
Não ouço nada (o que eu ouço não diz nada)
Am      G          F
Perdi a conta das pérolas e porcos
Am         G          F
Que eu cruzei pela estrada
Dm                     F                  C   G/B  Am  G
Estou ligado a cabo a tudo que acaba de acontecer
Am    G        F
Propaganda é a arma do negócio
Am        G             F
No nosso peito bate um alvo muito fácil
Am      G         F
Mira a laser... miragem de consumo
Am       G        F
Latas e litros de paz teleguiada
Dm                     F                     G
Estou ligado a cabo a tudo que eles tem pra oferecer

C                  G
O céu e só uma promessa
          F            Bb      G/B   C
Eu tenho pressa, vamos nessa dire...ção
C                         G
Atrás de um sol que nos aqueça
        Dm         Bb      G/B
Minha cabeça não aguenta mais...
C                  G
O céu e só uma promessa
          F            Bb      G/B   C
Eu tenho pressa, vamos nessa dire...ção
C                         G
Atrás de um sol que nos aqueça
        Dm         Bb          E7
Minha cabeça não aguenta mais...

(solo) Am F G (4x) 
       Am Bm C F G Am G

(solo)

E|-----------------------------------|
B|-10~--8-6-5-6-8-5~-----------------|
G|--------------------7-7~-----------|
D|-----------------------------------|
A|-----------------------------------|
E|-----------------------------------|


E|-17~-15-13-12-13-15-12~------------|
B|---------------------------22brb---|
G|-----------------------------------|
D|-----------------------------------|
A|-----------------------------------|
E|-----------------------------------|


E|--------------------------------------------------------------------|
B|--------------------------------------------------------------------|
G|--------16s18-16----------------------------------------------------|
D|----------------18--------14-14-14-14-14-16-16s17---16b--16-14--16B-|
A|--------------------------------------------------------------------|
E|--------------------------------------------------------------------|

Am          G       F
Tu me encontrastes de mãos vazias
Am          G            F
Eu te encontrei na contramão


E|-13-12--------------------|
B|--------13----------------|
G|------------14~-----------|
D|--------------------------|
A|--------------------------|
E|--------------------------|

Am       G    F
Na hora exata, na encruzilhada
Am       G     F
Na highway da super informação
Dm                  F              G
Estamos tão ligados já não temos o que temer