sexta-feira, dezembro 24, 2010

Eu que não amo você

Engenheiros do Hawaii

Tom: G 
  
(intro) Em C G D D#º

Em
Eu que não fumo queria um cigarro
C
Eu que não amo você
        G                        D         D#º
Envelheci dez anos ou mais nesse último mês

Em                               C
Eu que não bebo pedi um conhaque pra enfrentar o inverno
    G                                            D
Que entra pela porta que você deixou aberta ao sair
Am             G
Senti saudade, vontade de voltar
Am                   G
Fazer a coisa certa: aqui é o meu lugar
Em                             A
Mas, sabe como é difícil encontrar
Am        C                          G
A palavra certa, a hora certa de voltar
Am        C                        D
A porta aberta, a hora certa de chegar

Em
Eu que não fumo queria um cigarro
C
Eu que não amo você
        G                        D         D#º
Envelheci dez anos ou mais nesse último mês
Em                               C
Eu que não bebo pedi um conhaque pra enfrentar o inverno
    G                                            D
Que entra pela porta que você deixou aberta ao sair

Am                      G
O certo é que eu dancei sem querer dançar
Am               G
Agora já nem sei qual é o meu lugar
Em                                       A
Dia e noite sem parar procurei sem encontrar
Am         C                         G
A palavra certa, a hora certa de voltar
Am        C                        D
A porta aberta, a hora certa de chegar

Em
Eu que não fumo queria um cigarro
C
Eu que não amo você
        G                        D         D#º
Envelheci dez anos ou mais nesse último mês
Em                               C
Eu que não bebo pedi um conhaque pra enfrentar o inverno
    G                                            D   D#º
Que entra pela porta que você deixou aberta ao sair

(solo) ( Am G ) (2x)  Em Am Am C G ~   Am C D Em Am G Em


|-----------------|----------------------------------------------|
|--------13---12--|----------------------------------------------|
|-12^-12^--12^----|-16-14-----------------16-14--------(16)---16-|
|-----------------|-------17-14-17--14-17-------17-14------17----|
|-----------------|----------------------------------------------|
|-----------------|----------------------------------------------|


|--------------------12---------------------------------|
|-------------12--12----15-12---------------------------|
|-------12--------------------12------------------------|
|-12h14----14---------------------12-14-12--------------|
|------------------------------------------14-12-14-12/-|
|-------------------------------------------------------|


|-------------------------------------------------------|
|----------------------------------------12-12-12~~-----|
|-------------------------------------12----------------|
|-------------------------------12h14-------------------|
|-------10-12-12/14-12-10h12-12-------------------------|
|-10-12-------------------------------------------------|


|----------------------------15-17^-15h17-17^-15/12-12~~~~|
|-----------------------12-17-----------------------------|
|-------12-14^-12----12-----------------------------------|
|-12/14----------14---------------------------------------|
|---------------------------------------------------------|
|---------------------------------------------------------|

Em
Eu que não fumo queria um cigarro
C
Eu que não amo você
        G                        D         D#º
Envelheci dez anos ou mais nesse último mês
Em                               C
Eu que não bebo queria um conhaque pra enfrentar o inverno
    G                                           D    D#º
Que entra pela porta que você deixou aberta ao sair


 (final - "efeito" de wah-wah) ( Em  C  G  D D#º ) (2x)   Em
E|---------------------------------------------------------|
B|-12-10-8-8---5---12-10-8-8---5----12-10-8-8---7-6--------|
G|---------------------------------------------------------|
D|---------------------------------------------------------|
A|---------------------------------------------------------|
E|---------------------------------------------------------|

E|---------------------------------------------------------|
B|-12-10-8-8---5---12-10-8-8---5----12-10-8-8---7-6--5~----|
G|---------------------------------------------------------|
D|---------------------------------------------------------|
A|---------------------------------------------------------|
E|---------------------------------------------------------|