sexta-feira, dezembro 24, 2010

Revelação

Engenheiros do Hawaii

Tom: A 
  
(intro 2x) Am  Am/G  Am/F  E7(#9)

( E7(#9) - xx2133 )

(0:26)
Am
 um dia vestido
Am/G              F7+
 de saudade viva
G            E7
 faz ressucitar
Am
 casas mal vividas
Am/G              F7+
 camas repartidas
G            E7 F#m G#m E
 faz se revelar

(refrão)
A                 A7M
  quando a gente tenta
           A7                D  D4 D D9 Dm   
De toda maneira dele se guardar
              A    F#m            B7
Sentimento ilhado, morto e amordaçado
               E7
Volta a incomodar

A                 A7M
  quando a gente tenta
           A7                D  D4 D D9 Dm  
De toda maneira dele se guardar
              A    F#m            B7      E7
Sentimento ilhado, morto e amordaçado

Volta a incomodar

(solo)

E |--------|--------------------------------|
B |--------|-----------11/12-13-12-10--9/10-|
G |--------|----5-7b7-----------------------|
D |-----7--|--7-----------------------------|
A |-5h7----|--------------------------------|
E |--------|--------------------------------|


E |-----------------------------------------------|
B |----9-10-9-7-9-7-------------------------------|
G |------------------7-8-7-5-7b7--7-5-7-8-7-5-----|
D |-------------------------------------------7b7-|
A |-----------------------------------------------|
E |-----------------------------------------------|

(repete tudo - sem o solo)
(repete refrão)

               D  D4  Dm
Volta a incomodar
                   A
Ele volta a incomodar.