sexta-feira, dezembro 24, 2010

O exército de um homem só I

Engenheiros do Hawaii

Tom: E

Solo inicial:

e|----------------------------------|
B|--0-4-5-0-5-7-0-7-9-0-5-7-0-4-5-7-|
G|----------------------------------|  8x
D|----------------------------------|
A|----------------------------------|
E|----------------------------------|


       E  ( Riff 1) 
Não importa se só tocam
    A  (Riff 2)
O primeiro acorde da canção
   B   (Riff 3)
A gente escreve o resto
          E (Riff 1)
Em linhas tortas
    B/D#  (Riff 7)
Nas portas da percepção
    E   (Riff 1)
Em paredes de banheiro
      A  (Riff 2)
Nas folhas que o outono leva ao chão
      B   (Riff 3)
Em livros de história
                         E    (Riff 1)     B/D#  (Riff 7)
Seremos a memória dos dias que virão
                          E A B E (Riff 4)
(se é que eles virão)

      E  (Riff 1)
Não importa se só tocam
     A  (Riff 2)
O primeiro verso da canção
     B   (Riff 3 )
A gente escreve o resto
          E   (Riff 1)
Sem muita pressa
      B/D#    (Riff 7)
Com muita precisão
       E    (Riff 1)
Nos interessa o que não foi impresso
     A   (Riff 2)
E continua sendo escrito à mão
   B     (Riff 3)
Escrito à luz de velas
 E   (Riff 1)       B/D#   (Riff 7)
Quase na escuridão
                E    (Riff 5)
Longe da multidão

REFRÃO (RIFF 6)

* * B          * * F#m   
Somos um exército
* * A              * * E   
O exército de um homem só)
* * B      * * F#m    * * A     * * E
No difícil exercício de viver em paz
* * B      * * F#m
Somos um exército
* * A            * * E     
O exército de um homem só
 * * B         
Sem bandeiras 
 * * B           
Sem fronteiras 
* * B       
Pra defender
* * B       E       (Solo inicial 4x)
Pra defender

e|----------------------------------|
B|--0-4-5-0-5-7-0-7-9-0-5-7-0-4-5-7-|
G|----------------------------------|  
D|----------------------------------|
A|----------------------------------|
E|----------------------------------|   

     E   (Riff 1)
Não importa se só tocam
    A   (Riff 2)
O primeiro acorde da canção
    B     (Riff 3)
A gente escreve o resto
            E   (Riff 1)
E o resto é resto
     B/D#    (Riff 8)
É falsificação
      E    (Riff 1)
Sangue falso, bang-bang italiano
      A     (Riff 2)
Suingue falso, turista americano
   B    (Riff 3)
Livres dessa estória
                       E   (Riff 1)        B/D#   (Riff 8)
A nossa trajetória não precisa explicação
          E   (Riff 5)
(E não tem explicação)

REFRÃO (RIFF 6)

* * B       * * F#m
Somos um exército
* * A             * * E     
O exército de um homem só
* * B     * * F#m  * * A          * * E 
No difícil exercício de viver em paz
* * B           * * F#m
Somos um exército
* * A        * * E       
O exército de um homem só
* * B         
Sem bandeiras
* * B         
Sem fronteiras
* * B         
Para defender
* * B      E            
Pra defender


e|------7-------------------------|         
B|--0-4---0-5-7-0-7-9-0-5-7-4-5-7-|
G|--------------------------------| 

e|------7---------------------------|        
B|--0-4---0-5-7-0-7-9-0-5-7-0-9-7-5-|
G|----------------------------------|

Não interessa o que o bom senso diz
Não interessa o que diz o rei
Se no jogo não há juiz
Não há jogada fora da lei

Não interessa o que diz o ditado
Não interessa o que o estado diz
Nós falamos outra língua
Moramos em outro país

SOLO 1 -

e|------------4---|------4---4-7-4-|---4-7-4-----------------|
B|------5---5---5-|-5-5----5-------|-5-------5-------5-5-\---|
G|--4-4---4-------|----------------|-----------4-4-4---------|
D|----------------|----------------|-------------------------|
A|----------------|----------------|-------------------------|
E|----------------|----------------|-------------------------|

REFRÃO (RIFF 6)

* * B      * * F#m
Somos um exército
* * A              * * E    
O exército de um homem só
* * B    * * F#m  * * A   * * E    
No difícil exercício de viver em paz
* * B   * * F#m    
Nesse exército
* * A   * * E          
O exército de um homem só
* * B       
Todos sabem
* * B       
Que tanto faz
* * B      
Ser culpado
* * B       
Ou ser capaz
* * B     E
Tanto faz...

Solos finais:


e|----------------------------------|
B|--0-4-5-0-5-7-0-7-9-0-5-7-0-4-5-7-|
G|----------------------------------| 4x
D|----------------------------------|
A|----------------------------------|
E|----------------------------------|

e|-----------------------|
B|--0-4-5-0-5-7-0-7-9-7--|
G|-----------------------|  6x 
D|-----------------------|
A|-----------------------|
E|-----------------------|

e|--------------|--------------|--------------|-----------|
B|--0-4-5-0-5-7-|--0-4-5-0-5-7-|--0-4-5-0-5-7-|--0-4-5~~--|  
G|--------------|--------------|--------------|-----------|
D|--------------|--------------|--------------|-----------|
A|--------------|--------------|--------------|-----------|
E|--------------|--------------|--------------|-----------|