sexta-feira, dezembro 24, 2010

O papa é pop

Engenheiros do Hawaii

Tom: G  

(intro 2x) G  D4/F#  C

G                D4/F#                  C
Todo mundo tá relendo o que nunca foi lido
G                  D4/F#             C
Todo mundo tá comprando os mais vendidos

G                    D4/F#
Qualquer nota, qualquer notícia
 C                  D
Páginas em branco, fotos coloridas

G                    D4/F#
Qualquer nova, qualquer notícia
C               D               C
Qualquer coisa que se mova é um alvo
              D
E ninguém tá salvo

G                D4/F#                   C
Todo mundo tá revendo o que nunca foi visto
G          D4/F#               C
Tá na Caras, tá na capa da revista

G                   D4/F#
Qualquer nota, uma nota preta
C                  D
Páginas em branco,fotos coloridas
G               D4/F#
Qualquer rota,(rotatividade)
  C             D                C
Qualquer coisa que se mova é um alvo
              D
E ninguém tá salvo
       C          D
Um disparo, um estouro

(refrão)
   Em            A
O papa é pop, o papa é pop
   C          D       Em
O pop não poupa ninguém
                         A
O papa levou um tiro a queima roupa
  C          D          Em
O pop não poupa ninguém


   (solo)  Em A C D Em
E|-12/10/12-10-------------12/10/12-10--------------|
B|-------------12-10----10-------------12-10----12h-|
G|-------------------12----------------------12-----|
D|--------------------------------------------------|
A|--------------------------------------------------|
E|--------------------------------------------------|



E|-12/10/12/10/12-10-------------12/10/12-10--------------|
B|-------------------12-10----10-------------12-10----12--|
G|-------------------------12----------------------12-----|
D|--------------------------------------------------------|
A|--------------------------------------------------------|
E|--------------------------------------------------------|


G                D4/F#
Uma palavra na  tua camiseta
C
O planeta na tua cama
G               D4/F#
Uma palavra escrita a lápis
  C
Eternidades da semana

G                D4/F#
Qualquer nota qualquer notícia
 C                  D
Páginas em branco, fotos coloridas
G                    D4/F#
Qualquer coisa quase nova
C             D                C
Qualquer coisa que se mova é um alvo
              D
E ninguém tá salvo
       C          D
Um disparo, um estouro

(refrão)
   Em            A
O papa é pop, o papa é pop
   C          D       Em
O pop não poupa ninguém
                         A
O papa levou um tiro a queima roupa
  C          D          Em
O pop não poupa ninguém

(solo) Em   A   C   D   Em


E|-12/10/12-10-------------12/10/12-10--------------|
B|-------------12-10----10-------------12-10----12--|
G|-------------------12----------------------12-----|
D|--------------------------------------------------|
A|--------------------------------------------------|
E|--------------------------------------------------|



E|-12/10/12/10-12-10-------------(12/10/12)--|
B|-------------------12-10----10-------------|
G|-------------------------12----------------|
D|-------------------------------------------|
A|-------------------------------------------|
E|-------------------------------------------|


C
Toda catedral é populista
       C
É pop, é macumba prá turista
         C
E afinal o que é rock n’ roll?
   C
Os óculos do John, ou o olhar do Paul

  Em             A
O papa é pop, o papa é pop
  C         D         Em
O pop não poupa ninguém
                         A
O papa levou um tiro a queima roupa
  C
O pop não poupa,
                           Em
O pop não poupa ... ninguém...

(arranjo .1)

     C
E|--------10-|
B|------8----|
G|----9------|
D|-10--------|
A|-----------|
E|-----------|


(arranjo .2)

     D
E|--------10/12--|
B|------8--------|
G|----9----------|
D|-10------------|
A|---------------|
E|---------------|


(arranjo .3)

E|----------10-------10--------10-|
B|---12--------12-------12--------|
G|--------------------------------|
D|--------------------------------|
A|--------------------------------|
E|--------------------------------|


(arranjo .4)
E|--10-----10----10-----10----10----10-----10------10-------|
B|----8------8------0-----0------8-----8-----0--------0-----|
G|------9-----9-------9-----9------9-----9-----9--------9---|
D|----------------------------------------------------------|