sexta-feira, dezembro 24, 2010

Nunca mais

Engenheiros do Hawaii

Tom:  E 
  
Intro: E B E/G# Asus2

(E B E/G# Asus2)
não é o que se pode chamar de uma história original
mas não importa: é a vida real
acordar de madrugada vindo de outro planeta
sentir-se só
uma criança num berço de ouro
e a ferrugem ao seu redor

E B E/G# Asus2

(E B E/G# Asus2)
os muros da cidade falavam alto demais
coisas que ela não podia mudar nem suportar
ela quis voltar para casa
cansou da violência que ninguém via
viu milhões de fotografias e achou todas iguais

REFRÂO
:E          B            Asus2
:conta pra mim o que te fez chorar
:       E  B                Asus2
:nunca mais quero te ver chorar
:E          B            Asus2
:conta pra mim o que te fez chorar
:       F#                 Asus2
:nunca mais quero te ver chorar
:      E     B E/G# Asus2
:nunca mais

(E B E/G# Asus2)
ofereci abrigo, um lugar para ficar
ela me olhou como se soubesse desde o início
que eu também não era dali
e quando sorriu ficou ainda mais bonita
tinha a força de quem sabe
que a hora certa vai chegar
lágrimas no sorriso
mãe e filha, chuva e sol
segredos que não podia guardar
e não conseguia contar

REFRÂO

Solo: (E B Asus2) 2x  (F# Asus2) 2x

   E    B    Asus2        E    B     Asus2
e|---------------------------------------------
B|-12~--12~--12~--12~-----12~--12~-------------
G|---------------------11------------9~----9~--
D|---------------------------------------------
A|---------------------------------------------
E|---------------------------------------------

      F#      Asus2   F#               Asus2                E
e|--------------------------------------------------------------
B|----------->9b------11h12p11---------9h10p9-------------------
G|-------6-8-----9-------------11-------------9-----------9-9~--
D|--7>8~--------------------------11~------------9~--9h11-------
A|--------------------------------------------------------------
E|--------------------------------------------------------------

E B E/G# Asus2

(E B E/G# Asus2)
ainda ando pelas mesmas ruas
a cidade cresce e tudo fica cada vez menor
agora eu sei que a vida não é um jogo
de palavras cruzadas
onde tudo se encaixa
?o que será que ela quis dizer?
5 letras, começando com a letra A

REFRÂO 2X