sexta-feira, dezembro 24, 2010

Dom Quixote

Engenheiros do Hawaii
Tom: A 
  
(intro) A A9 D7+/9
A                 A9           A
muito prazer, meu nome é otário
D7+/9                      D6/9         D7+/9
vindo de outros tempos mas sempre no horário
A              A9                  D7+/9  D9
peixe fora d'água, borboletas no aquário

A               A9         A
muito prazer, meu nome é otário
D7+/9                 D6/9     D7+/9
na ponta dos cascos e fora do páreo
A         A9           D7+/9  D9
puro sangue puxando carroça

A D9
(baixo) 60 62 64 62 65 64 62 64 60

A               A9        A
um prazer cada vez mais raro
D7+/9               D6/9      D7+/9
aerodinâmica num tanque de guerra
A                 A9              D7+/9  D9
vaidades que a terra um dia há de comer

A                  A9      A
às de espadas fora do baralho
D7+/9                D6/9         D7+/9
grandes negócios, pequeno empresário
A          A9            D7+/9   D9
muito prazer me chamam de otário

Bm                    D
por amor às causas perdidas

A              C#7
tudo bem...até pode ser
          F#m          E         D
que os dragões sejam moinhos de vento
A               C#7
tudo bem...seja o que for
     F#m         E         D
seja por amor às causas perdidas
Bm                     E
por amor às causas perdidas


(solo) F#m D F#m E D Bm D Bm E
E |----------------------------------|
B |---------------------2-2-2h3-2----|
G |-2---2---2-2p0-4-4p2--------------|
D |---4---4--------------------------|
A |----------------------------------|
E |----------------------------------|


E |-12p0-10p0(4x)-17p0-14p0(4x)------|
B |----------------------------------|
G |----------------------------------|
D |----------------------------------|
A |----------------------------------|
E |----------------------------------|


E |-19-12-19-------------------------|
B |----------12-12-14-14-15-15-17-17-|
G |----------------------------------|
D |----------------------------------|
A |----------------------------------|
E |----------------------------------|

A              C#7
tudo bem...até pode ser
          F#m          E         D
que os dragões sejam moinhos de vento
A                 C#7
muito prazer...ao seu dispor
       F#m         E          D
se for por amor às causas perdidas
Bm                     E
por amor às causas perdidas

(solo) 32 34 22 34 23 22 34 22 32 (2x) 4b2 4b2