domingo, novembro 12, 2006

A dama e o vagabundo

Paralamas do Sucesso
Introdução, abafada com distorção:
----------------------------------------------------
----------------------------------------------------
----------------------------------------------------
----------------------------------------------------
5-5--------5----------------------------------------
----7-7-5-5--7-7-5-5-3-3-3-0-2-0-2-0-3-0-3-0-3-3-2-0
de vez em quando no final da intro o herbert toca
essas duas notas:
e/4-4-----5-5/           e/2-2----4-4------5-5/  
b/5-5-----6-6/           b/2-3----5-5------6-6/
g/6-6-----7-7/           g/2-4----6-6------7-7/
d/6-6-----5-5/           d/2-2----6-6------5-5/
a/4-4-----5-5/           a/-------4-4------5-5/
e/4-4-----5-5/           e/-------4-4------5-5/
fim da intro
e/2-2-2----4-4---------5-5/
b/2-3-2----5-5---------6-6/
g/2-4-2----6-6---------7-7/ nessa estrofes ele
d/2-2-2----6-6---------5-5/ toca isso....
a/---------4-4---------5-5/
e/---------4-4---------5-5/
Eu fico sentado rindo
Te ouvindo reclamar
Meu bem há coisas mais importantes lá fora
Que os nossos quadros por pregar
toque varias vezes a batida
e---7-/ 
b---7-/
g---9-/
d---9-/
a---7-/
e---7-/
Mas a gente combina o que for necessário
e--2--/ 
b--2--/
g--2--/
d--4--/
a--4--/
e--2--/
'Cê lava os pratos
G
Eu lavo o carro
e/2-2-2----4-4---------5-5/
b/2-3-2----5-5---------6-6/
g/2-4-2----6-6---------7-7/
d/2-2-2----6-6---------5-5/
a/---------4-4---------5-5/
e/---------4-4---------5-5/
Ou ao contrário
Tanto faz
repete varias vezes nessa estrofe:
----------------------------------------------------
----------------------------------------------------
----------------------------------------------------
----------------------------------------------------
5-5---------5---------------------------------------
----7-7-5-5--7-7-5-5-3-3--3-0-2-0-2-0-3-0-3-0-3-3-2-
Meu nome está no distrito
E o seu está nos jornais
E não me basta o que eu já sei
Eu ainda erro demais
e--2--/ 
b--2--/
g--2--/
d--4--/
a--4--/
e--2--/
A gente combina o que for mais seguro
e--2--/ 
b--2--/
g--2--/
d--4--/
a--4--/
e--2--/
'Cê fica em casa

G
Eu pulo o muro
e/2-2-2----4-4---------5-5/
b/2-3-2----5-5---------6-6/
g/2-4-2----6-6---------7-7/
d/2-2-2----6-6---------5-5/
a/---------4-4---------5-5/
e/---------4-4---------5-5/
Ou ao contrário
Tanto faz
e faça a mesma coisa com a ultima estrofe:
Mas a gente combina o que for necessário
Eu lavo o carro
'Cê lava os pratos
Ou ao contrário
Tanto faz